  0
SECTION
  2
HEADER
  9
$ACADVER
  1
AC1015
  9
$ACADMAINTVER
 70
     6
  9
$DWGCODEPAGE
  3
ANSI_1252
  9
$INSBASE
 10
0.0
 20
0.0
 30
0.0
  9
$EXTMIN
 10
1.000000000000000E+20
 20
1.000000000000000E+20
 30
1.000000000000000E+20
  9
$EXTMAX
 10
-1.000000000000000E+20
 20
-1.000000000000000E+20
 30
-1.000000000000000E+20
  9
$LIMMIN
 10
0.0
 20
0.0
  9
$LIMMAX
 10
12.0
 20
9.0
  9
$ORTHOMODE
 70
     0
  9
$REGENMODE
 70
     1
  9
$FILLMODE
 70
     1
  9
$QTEXTMODE
 70
     0
  9
$MIRRTEXT
 70
     1
  9
$LTSCALE
 40
1.0
  9
$ATTMODE
 70
     1
  9
$TEXTSIZE
 40
0.075
  9
$TRACEWID
 40
0.05
  9
$TEXTSTYLE
  7
Standard
  9
$CLAYER
  8
0
  9
$CELTYPE
  6
ByLayer
  9
$CECOLOR
 62
     2
  9
$CELTSCALE
 40
1.0
  9
$DISPSILH
 70
     0
  9
$DIMSCALE
 40
1.0
  9
$DIMASZ
 40
0.18
  9
$DIMEXO
 40
0.0625
  9
$DIMDLI
 40
0.38
  9
$DIMRND
 40
0.0
  9
$DIMDLE
 40
0.0
  9
$DIMEXE
 40
0.0135
  9
$DIMTP
 40
0.001
  9
$DIMTM
 40
-0.001
  9
$DIMTXT
 40
0.075
  9
$DIMCEN
 40
0.09
  9
$DIMTSZ
 40
0.0
  9
$DIMTOL
 70
     0
  9
$DIMLIM
 70
     0
  9
$DIMTIH
 70
     1
  9
$DIMTOH
 70
     1
  9
$DIMSE1
 70
     0
  9
$DIMSE2
 70
     0
  9
$DIMTAD
 70
     0
  9
$DIMZIN
 70
     0
  9
$DIMBLK
  1

  9
$DIMASO
 70
     1
  9
$DIMSHO
 70
     1
  9
$DIMPOST
  1

  9
$DIMAPOST
  1

  9
$DIMALT
 70
     0
  9
$DIMALTD
 70
     2
  9
$DIMALTF
 40
25.4
  9
$DIMLFAC
 40
1.0
  9
$DIMTOFL
 70
     0
  9
$DIMTVP
 40
0.0
  9
$DIMTIX
 70
     0
  9
$DIMSOXD
 70
     0
  9
$DIMSAH
 70
     0
  9
$DIMBLK1
  1

  9
$DIMBLK2
  1

  9
$DIMSTYLE
  2
Standard
  9
$DIMCLRD
 70
     0
  9
$DIMCLRE
 70
     0
  9
$DIMCLRT
 70
     0
  9
$DIMTFAC
 40
1.0
  9
$DIMGAP
 40
0.09
  9
$DIMJUST
 70
     0
  9
$DIMSD1
 70
     0
  9
$DIMSD2
 70
     0
  9
$DIMTOLJ
 70
     1
  9
$DIMTZIN
 70
     0
  9
$DIMALTZ
 70
     0
  9
$DIMALTTZ
 70
     0
  9
$DIMUPT
 70
     0
  9
$DIMDEC
 70
     4
  9
$DIMTDEC
 70
     4
  9
$DIMALTU
 70
     2
  9
$DIMALTTD
 70
     2
  9
$DIMTXSTY
  7
Standard
  9
$DIMAUNIT
 70
     0
  9
$DIMADEC
 70
     0
  9
$DIMALTRND
 40
0.0
  9
$DIMAZIN
 70
     0
  9
$DIMDSEP
 70
    46
  9
$DIMATFIT
 70
     3
  9
$DIMFRAC
 70
     0
  9
$DIMLDRBLK
  1

  9
$DIMLUNIT
 70
     2
  9
$DIMLWD
 70
    -2
  9
$DIMLWE
 70
    -2
  9
$DIMTMOVE
 70
     0
  9
$LUNITS
 70
     2
  9
$LUPREC
 70
     8
  9
$SKETCHINC
 40
0.1
  9
$FILLETRAD
 40
0.5
  9
$AUNITS
 70
     0
  9
$AUPREC
 70
     0
  9
$MENU
  1
.
  9
$ELEVATION
 40
0.0
  9
$PELEVATION
 40
0.0
  9
$THICKNESS
 40
0.0
  9
$LIMCHECK
 70
     0
  9
$CHAMFERA
 40
0.5
  9
$CHAMFERB
 40
0.5
  9
$CHAMFERC
 40
1.0
  9
$CHAMFERD
 40
0.0
  9
$SKPOLY
 70
     0
  9
$TDCREATE
 40
2455063.458687824
  9
$TDUCREATE
 40
2455063.625354491
  9
$TDUPDATE
 40
2455063.458687836
  9
$TDUUPDATE
 40
2455063.625354502
  9
$TDINDWG
 40
0.0000000116
  9
$TDUSRTIMER
 40
0.0000000116
  9
$USRTIMER
 70
     1
  9
$ANGBASE
 50
0.0
  9
$ANGDIR
 70
     0
  9
$PDMODE
 70
     2
  9
$PDSIZE
 40
0.03
  9
$PLINEWID
 40
0.0
  9
$SPLFRAME
 70
     0
  9
$SPLINETYPE
 70
     6
  9
$SPLINESEGS
 70
     8
  9
$HANDSEED
  5
E1
  9
$SURFTAB1
 70
     6
  9
$SURFTAB2
 70
     6
  9
$SURFTYPE
 70
     6
  9
$SURFU
 70
     6
  9
$SURFV
 70
     6
  9
$UCSBASE
  2

  9
$UCSNAME
  2

  9
$UCSORG
 10
0.0
 20
0.0
 30
0.0
  9
$UCSXDIR
 10
1.0
 20
0.0
 30
0.0
  9
$UCSYDIR
 10
0.0
 20
1.0
 30
0.0
  9
$UCSORTHOREF
  2

  9
$UCSORTHOVIEW
 70
     0
  9
$UCSORGTOP
 10
0.0
 20
0.0
 30
0.0
  9
$UCSORGBOTTOM
 10
0.0
 20
0.0
 30
0.0
  9
$UCSORGLEFT
 10
0.0
 20
0.0
 30
0.0
  9
$UCSORGRIGHT
 10
0.0
 20
0.0
 30
0.0
  9
$UCSORGFRONT
 10
0.0
 20
0.0
 30
0.0
  9
$UCSORGBACK
 10
0.0
 20
0.0
 30
0.0
  9
$PUCSBASE
  2

  9
$PUCSNAME
  2

  9
$PUCSORG
 10
0.0
 20
0.0
 30
0.0
  9
$PUCSXDIR
 10
1.0
 20
0.0
 30
0.0
  9
$PUCSYDIR
 10
0.0
 20
1.0
 30
0.0
  9
$PUCSORTHOREF
  2

  9
$PUCSORTHOVIEW
 70
     0
  9
$PUCSORGTOP
 10
0.0
 20
0.0
 30
0.0
  9
$PUCSORGBOTTOM
 10
0.0
 20
0.0
 30
0.0
  9
$PUCSORGLEFT
 10
0.0
 20
0.0
 30
0.0
  9
$PUCSORGRIGHT
 10
0.0
 20
0.0
 30
0.0
  9
$PUCSORGFRONT
 10
0.0
 20
0.0
 30
0.0
  9
$PUCSORGBACK
 10
0.0
 20
0.0
 30
0.0
  9
$USERI1
 70
     0
  9
$USERI2
 70
     0
  9
$USERI3
 70
     0
  9
$USERI4
 70
     0
  9
$USERI5
 70
     0
  9
$USERR1
 40
0.0
  9
$USERR2
 40
0.0
  9
$USERR3
 40
0.0
  9
$USERR4
 40
0.0
  9
$USERR5
 40
0.0
  9
$WORLDVIEW
 70
     1
  9
$SHADEDGE
 70
     3
  9
$SHADEDIF
 70
    70
  9
$TILEMODE
 70
     1
  9
$MAXACTVP
 70
    64
  9
$PINSBASE
 10
0.0
 20
0.0
 30
0.0
  9
$PLIMCHECK
 70
     0
  9
$PEXTMIN
 10
1.000000000000000E+20
 20
1.000000000000000E+20
 30
1.000000000000000E+20
  9
$PEXTMAX
 10
-1.000000000000000E+20
 20
-1.000000000000000E+20
 30
-1.000000000000000E+20
  9
$PLIMMIN
 10
-0.25
 20
-0.25
  9
$PLIMMAX
 10
10.75
 20
8.25
  9
$UNITMODE
 70
     0
  9
$VISRETAIN
 70
     1
  9
$PLINEGEN
 70
     0
  9
$PSLTSCALE
 70
     1
  9
$TREEDEPTH
 70
  3020
  9
$CMLSTYLE
  2
Standard
  9
$CMLJUST
 70
     0
  9
$CMLSCALE
 40
1.0
  9
$PROXYGRAPHICS
 70
     1
  9
$MEASUREMENT
 70
     0
  9
$CELWEIGHT
370
    -1
  9
$ENDCAPS
280
     0
  9
$JOINSTYLE
280
     0
  9
$LWDISPLAY
290
     0
  9
$INSUNITS
 70
     1
  9
$HYPERLINKBASE
  1

  9
$STYLESHEET
  1

  9
$XEDIT
290
     1
  9
$CEPSNTYPE
380
     0
  9
$PSTYLEMODE
290
     1
  9
$FINGERPRINTGUID
  2
{4E20E5F9-1F10-4895-8811-4CDC1A0BDD54}
  9
$VERSIONGUID
  2
{FAEB1C32-E019-11D5-929B-00C0DF256EC4}
  9
$EXTNAMES
290
     1
  9
$PSVPSCALE
 40
0.0
  9
$OLESTARTUP
290
     0
  0
ENDSEC
  0
SECTION
  2
CLASSES
  0
CLASS
  1
ACDBDICTIONARYWDFLT
  2
AcDbDictionaryWithDefault
  3
ObjectDBX Classes
 90
        0
280
     0
281
     0
  0
CLASS
  1
VISUALSTYLE
  2
AcDbVisualStyle
  3
ObjectDBX Classes
 90
     4095
280
     0
281
     0
  0
CLASS
  1
SCALE
  2
AcDbScale
  3
ObjectDBX Classes
 90
     1153
280
     0
281
     0
  0
CLASS
  1
ACDBPLACEHOLDER
  2
AcDbPlaceHolder
  3
ObjectDBX Classes
 90
        0
280
     0
281
     0
  0
CLASS
  1
LAYOUT
  2
AcDbLayout
  3
ObjectDBX Classes
 90
        0
280
     0
281
     0
  0
ENDSEC
  0
SECTION
  2
TABLES
  0
TABLE
  2
VPORT
  5
8
330
0
100
AcDbSymbolTable
 70
     1
  0
VPORT
  5
29
330
8
100
AcDbSymbolTableRecord
100
AcDbViewportTableRecord
  2
*Active
 70
     0
 10
0.0
 20
0.0
 11
1.0
 21
1.0
 12
0.0
 22
0.0
 13
0.0
 23
0.0
 14
0.5
 24
0.5
 15
0.5
 25
0.5
 16
0.0
 26
0.0
 36
1.0
 17
-1.861698699344415
 27
9.429532736088333
 37
0.0
 40
6.518070065578714
 41
0.5898440206767671
 42
50.0
 43
0.0
 44
0.0
 50
0.0
 51
0.0
 71
     0
 72
 10000
 73
     1
 74
     3
 75
     0
 76
     0
 77
     0
 78
     0
281
     0
 65
     1
110
0.0
120
0.0
130
0.0
111
1.0
121
0.0
131
0.0
112
0.0
122
1.0
132
0.0
 79
     0
146
0.0
  0
ENDTAB
  0
TABLE
  2
LTYPE
  5
5
330
0
100
AcDbSymbolTable
 70
     4
  0
LTYPE
  5
14
330
5
100
AcDbSymbolTableRecord
100
AcDbLinetypeTableRecord
  2
ByBlock
 70
     0
  3

 72
    65
 73
     0
 40
0.0
  0
LTYPE
  5
15
330
5
100
AcDbSymbolTableRecord
100
AcDbLinetypeTableRecord
  2
ByLayer
 70
     0
  3

 72
    65
 73
     0
 40
0.0
  0
LTYPE
  5
16
330
5
100
AcDbSymbolTableRecord
100
AcDbLinetypeTableRecord
  2
Continuous
 70
     0
  3
Solid line
 72
    65
 73
     0
 40
0.0
  0
LTYPE
  5
3B
330
5
100
AcDbSymbolTableRecord
100
AcDbLinetypeTableRecord
  2
DASHED
 70
     0
  3
_ _ _ _ _ _ _ _ _ _ _ _ _ _ _ _
 72
    65
 73
     2
 40
0.2
 49
0.1
 74
     0
 49
-0.1
 74
     0
  0
LTYPE
  5
3C
330
5
100
AcDbSymbolTableRecord
100
AcDbLinetypeTableRecord
  2
CENTER
 70
     0
  3
___ _ ___ _ ___ _ ___ _ ___ _ ___ _ ___ _ ___ _
 72
    65
 73
     4
 40
0.95
 49
0.625
 74
     0
 49
-0.125
 74
     0
 49
0.075
 74
     0
 49
-0.125
 74
     0
  0
LTYPE
  5
3D
330
5
100
AcDbSymbolTableRecord
100
AcDbLinetypeTableRecord
  2
PHANTOM
 70
     0
  3
______  __  __  ______  __  __  ______  __  __  
 72
    65
 73
     6
 40
1.025
 49
0.625
 74
     0
 49
-0.125
 74
     0
 49
0.075
 74
     0
 49
-0.125
 74
     0
 49
0.075
 74
     0
 49
-0.125
 74
     0
  0
ENDTAB
  0
TABLE
  2
LAYER
  5
2
330
0
100
AcDbSymbolTable
 70
    28
  0
LAYER
  5
10
330
2
100
AcDbSymbolTableRecord
100
AcDbLayerTableRecord
  2
0
 70
     0
 62
     7
  6
Continuous
370
    -3
390
F
  0
LAYER
  5
3E
330
2
100
AcDbSymbolTableRecord
100
AcDbLayerTableRecord
  2
Coupler Base [1]
 70
     0
 62
     5
  6
Continuous
370
     0
390
F
  0
LAYER
  5
3F
330
2
100
AcDbSymbolTableRecord
100
AcDbLayerTableRecord
  2
Coupler Top [2]
 70
     0
 62
     5
  6
Continuous
370
     0
390
F
  0
LAYER
  5
40
330
2
100
AcDbSymbolTableRecord
100
AcDbLayerTableRecord
  2
Coupler Nut [3]
 70
     0
 62
     5
  6
Continuous
370
     0
390
F
  0
LAYER
  5
41
330
2
100
AcDbSymbolTableRecord
100
AcDbLayerTableRecord
  2
Swivel Bolt [4]
 70
     0
 62
     5
  6
Continuous
370
     0
390
F
  0
LAYER
  5
42
330
2
100
AcDbSymbolTableRecord
100
AcDbLayerTableRecord
  2
Retaining Ring [5]
 70
     0
 62
     5
  6
Continuous
370
     0
390
F
  0
LAYER
  5
43
330
2
100
AcDbSymbolTableRecord
100
AcDbLayerTableRecord
  2
Dims [6]
 70
     0
 62
     5
  6
Continuous
370
     0
390
F
  0
LAYER
  5
44
330
2
100
AcDbSymbolTableRecord
100
AcDbLayerTableRecord
  2
Swivel Pin [7]
 70
     0
 62
     5
  6
Continuous
370
     0
390
F
  0
LAYER
  5
45
330
2
100
AcDbSymbolTableRecord
100
AcDbLayerTableRecord
  2
Stamp Fixture [8]
 70
     0
 62
     5
  6
Continuous
370
     0
390
F
  0
LAYER
  5
46
330
2
100
AcDbSymbolTableRecord
100
AcDbLayerTableRecord
  2
1_2_ CS Hole [9]
 70
     0
 62
     5
  6
Continuous
370
     0
390
F
  0
LAYER
  5
47
330
2
100
AcDbSymbolTableRecord
100
AcDbLayerTableRecord
  2
3_8_ CS Hole [10]
 70
     0
 62
     5
  6
Continuous
370
     0
390
F
  0
LAYER
  5
48
330
2
100
AcDbSymbolTableRecord
100
AcDbLayerTableRecord
  2
Hex Pocket [11]
 70
     0
 62
    -5
  6
Continuous
370
     0
390
F
  0
LAYER
  5
49
330
2
100
AcDbSymbolTableRecord
100
AcDbLayerTableRecord
  2
Unnamed [12]
 70
     0
 62
     5
  6
Continuous
370
     0
390
F
  0
LAYER
  5
4A
330
2
100
AcDbSymbolTableRecord
100
AcDbLayerTableRecord
  2
Unnamed [13]
 70
     0
 62
     5
  6
Continuous
370
     0
390
F
  0
LAYER
  5
4B
330
2
100
AcDbSymbolTableRecord
100
AcDbLayerTableRecord
  2
Unnamed [14]
 70
     0
 62
     5
  6
Continuous
370
     0
390
F
  0
LAYER
  5
4C
330
2
100
AcDbSymbolTableRecord
100
AcDbLayerTableRecord
  2
Unnamed [15]
 70
     0
 62
     5
  6
Continuous
370
     0
390
F
  0
LAYER
  5
4D
330
2
100
AcDbSymbolTableRecord
100
AcDbLayerTableRecord
  2
Unnamed [16]
 70
     0
 62
     5
  6
Continuous
370
     0
390
F
  0
LAYER
  5
4E
330
2
100
AcDbSymbolTableRecord
100
AcDbLayerTableRecord
  2
Unnamed [17]
 70
     0
 62
     5
  6
Continuous
370
     0
390
F
  0
LAYER
  5
4F
330
2
100
AcDbSymbolTableRecord
100
AcDbLayerTableRecord
  2
Unnamed [18]
 70
     0
 62
     5
  6
Continuous
370
     0
390
F
  0
LAYER
  5
50
330
2
100
AcDbSymbolTableRecord
100
AcDbLayerTableRecord
  2
Unnamed [19]
 70
     0
 62
     5
  6
Continuous
370
     0
390
F
  0
LAYER
  5
51
330
2
100
AcDbSymbolTableRecord
100
AcDbLayerTableRecord
  2
Unnamed [20]
 70
     0
 62
     5
  6
Continuous
370
     0
390
F
  0
LAYER
  5
52
330
2
100
AcDbSymbolTableRecord
100
AcDbLayerTableRecord
  2
Unnamed [21]
 70
     0
 62
     5
  6
Continuous
370
     0
390
F
  0
LAYER
  5
53
330
2
100
AcDbSymbolTableRecord
100
AcDbLayerTableRecord
  2
Unnamed [22]
 70
     0
 62
     5
  6
Continuous
370
     0
390
F
  0
LAYER
  5
54
330
2
100
AcDbSymbolTableRecord
100
AcDbLayerTableRecord
  2
Unnamed [23]
 70
     0
 62
     5
  6
Continuous
370
     0
390
F
  0
LAYER
  5
55
330
2
100
AcDbSymbolTableRecord
100
AcDbLayerTableRecord
  2
Unnamed [24]
 70
     0
 62
     5
  6
Continuous
370
     0
390
F
  0
LAYER
  5
56
330
2
100
AcDbSymbolTableRecord
100
AcDbLayerTableRecord
  2
Unnamed [25]
 70
     0
 62
     5
  6
Continuous
370
     0
390
F
  0
LAYER
  5
57
330
2
100
AcDbSymbolTableRecord
100
AcDbLayerTableRecord
  2
Unnamed [26]
 70
     0
 62
     5
  6
Continuous
370
     0
390
F
  0
LAYER
  5
58
330
2
100
AcDbSymbolTableRecord
100
AcDbLayerTableRecord
  2
Unnamed [27]
 70
     0
 62
     5
  6
Continuous
370
     0
390
F
  0
ENDTAB
  0
TABLE
  2
STYLE
  5
3
330
0
100
AcDbSymbolTable
 70
     1
  0
STYLE
  5
11
330
3
100
AcDbSymbolTableRecord
100
AcDbTextStyleTableRecord
  2
Standard
 70
     0
 40
0.0
 41
1.0
 50
0.0
 71
     0
 42
0.2
  3
txt
  4

  0
ENDTAB
  0
TABLE
  2
VIEW
  5
6
330
0
100
AcDbSymbolTable
 70
     0
  0
ENDTAB
  0
TABLE
  2
UCS
  5
7
330
0
100
AcDbSymbolTable
 70
     0
  0
ENDTAB
  0
TABLE
  2
APPID
  5
9
330
0
100
AcDbSymbolTable
 70
     1
  0
APPID
  5
12
330
9
100
AcDbSymbolTableRecord
100
AcDbRegAppTableRecord
  2
ACAD
 70
     0
  0
ENDTAB
  0
TABLE
  2
DIMSTYLE
  5
A
330
0
100
AcDbSymbolTable
 70
     1
100
AcDbDimStyleTable
  0
DIMSTYLE
105
27
330
A
100
AcDbSymbolTableRecord
100
AcDbDimStyleTableRecord
  2
Standard
 70
     0
340
11
  0
ENDTAB
  0
TABLE
  2
BLOCK_RECORD
  5
1
330
0
100
AcDbSymbolTable
 70
     1
  0
BLOCK_RECORD
  5
1F
330
1
100
AcDbSymbolTableRecord
100
AcDbBlockTableRecord
  2
*Model_Space
340
22
  0
BLOCK_RECORD
  5
1B
330
1
100
AcDbSymbolTableRecord
100
AcDbBlockTableRecord
  2
*Paper_Space
340
1E
  0
ENDTAB
  0
ENDSEC
  0
SECTION
  2
BLOCKS
  0
BLOCK
  5
20
330
1F
100
AcDbEntity
  8
0
100
AcDbBlockBegin
  2
*Model_Space
 70
     0
 10
0.0
 20
0.0
 30
0.0
  3
*Model_Space
  1

  0
ENDBLK
  5
21
330
1F
100
AcDbEntity
  8
0
100
AcDbBlockEnd
  0
BLOCK
  5
1C
330
1B
100
AcDbEntity
 67
     1
  8
0
100
AcDbBlockBegin
  2
*Paper_Space
 70
     0
 10
0.0
 20
0.0
 30
0.0
  3
*Paper_Space
  1

  0
ENDBLK
  5
1D
330
1B
100
AcDbEntity
 67
     1
  8
0
100
AcDbBlockEnd
  0
ENDSEC
  0
SECTION
  2
ENTITIES
  0
LINE
  5
59
330
1F
100
AcDbEntity
  8
1_2_ CS Hole [9]
  6
DASHED
 62
     2
370
     0
100
AcDbLine
 10
-2.427021026611328
 20
9.201497703298978
 30
0.0
 11
-2.177021026611328
 21
8.913905601493726
 31
0.0
  0
LINE
  5
5A
330
1F
100
AcDbEntity
  8
1_2_ CS Hole [9]
  6
DASHED
 62
     2
370
     0
100
AcDbLine
 10
-2.177021026611328
 20
8.670497703298977
 30
0.0
 11
-2.177021026611328
 21
8.913905601493726
 31
0.0
  0
LINE
  5
5B
330
1F
100
AcDbEntity
  8
1_2_ CS Hole [9]
  6
DASHED
 62
     2
370
     0
100
AcDbLine
 10
-1.677021026611328
 20
8.670497703298977
 30
0.0
 11
-1.677021026611328
 21
8.913905601493726
 31
0.0
  0
LINE
  5
5C
330
1F
100
AcDbEntity
  8
1_2_ CS Hole [9]
  6
DASHED
 62
     2
370
     0
100
AcDbLine
 10
-1.427021026611328
 20
9.201497703298978
 30
0.0
 11
-1.427021026611328
 21
9.352938214796964
 31
0.0
  0
LINE
  5
5D
330
1F
100
AcDbEntity
  8
1_2_ CS Hole [9]
  6
DASHED
 62
     2
370
     0
100
AcDbLine
 10
-1.427021026611328
 20
9.201497703298978
 30
0.0
 11
-1.677021026611328
 21
8.913905601493726
 31
0.0
  0
LINE
  5
5E
330
1F
100
AcDbEntity
  8
1_2_ CS Hole [9]
  6
DASHED
 62
     2
370
     0
100
AcDbLine
 10
-2.177021026611328
 20
8.913905601493726
 30
0.0
 11
-1.677021026611328
 21
8.913905601493726
 31
0.0
  0
LINE
  5
5F
330
1F
100
AcDbEntity
  8
1_2_ CS Hole [9]
  6
DASHED
 62
     2
370
     0
100
AcDbLine
 10
-2.427021026611328
 20
9.201497703298978
 30
0.0
 11
-2.427021026611328
 21
9.352938214796964
 31
0.0
  0
LINE
  5
60
330
1F
100
AcDbEntity
  8
1_2_ CS Hole [9]
  6
DASHED
 62
     2
370
     0
100
AcDbLine
 10
-2.427021026611328
 20
9.201497703298978
 30
0.0
 11
-1.427021026611328
 21
9.201497703298978
 31
0.0
  0
LINE
  5
61
330
1F
100
AcDbEntity
  8
1_2_ CS Hole [9]
  6
DASHED
 62
     2
370
     0
100
AcDbLine
 10
-2.427021026611328
 20
9.221497703298978
 30
0.0
 11
-1.427021026611328
 21
9.221497703298978
 31
0.0
  0
LINE
  5
62
330
1F
100
AcDbEntity
  8
Swivel Bolt [4]
  6
Continuous
 62
     2
370
     0
100
AcDbLine
 10
-1.489521026611328
 20
8.670497703298977
 30
0.0
 11
-1.655646202173087
 21
8.045497703298977
 31
0.0
  0
LINE
  5
63
330
1F
100
AcDbEntity
  8
Swivel Bolt [4]
  6
Continuous
 62
     2
370
     0
100
AcDbLine
 10
-2.364521026611328
 20
8.670497703298977
 30
0.0
 11
-1.489521026611328
 21
8.670497703298977
 31
0.0
  0
LINE
  5
64
330
1F
100
AcDbEntity
  8
Swivel Bolt [4]
  6
Continuous
 62
     2
370
     0
100
AcDbLine
 10
-1.012064065700785
 20
7.397279140870863
 30
0.0
 11
-1.489521026611328
 21
8.670497703298977
 31
0.0
  0
LINE
  5
65
330
1F
100
AcDbEntity
  8
Swivel Bolt [4]
  6
Continuous
 62
     2
370
     0
100
AcDbLine
 10
-2.364521026611328
 20
8.670497703298977
 30
0.0
 11
-2.198395851049569
 21
8.045497703298977
 31
0.0
  0
LINE
  5
66
330
1F
100
AcDbEntity
  8
Swivel Bolt [4]
  6
Continuous
 62
     2
370
     0
100
AcDbLine
 10
-1.363187507289177
 20
7.265607850275215
 30
0.0
 11
-1.655646202173087
 21
8.045497703298977
 31
0.0
  0
LINE
  5
67
330
1F
100
AcDbEntity
  8
Swivel Bolt [4]
  6
Continuous
 62
     2
370
     0
100
AcDbLine
 10
-2.364521026611328
 20
8.670497703298977
 30
0.0
 11
-2.841977987521871
 21
7.397279140870863
 31
0.0
  0
LINE
  5
68
330
1F
100
AcDbEntity
  8
Swivel Bolt [4]
  6
Continuous
 62
     2
370
     0
100
AcDbLine
 10
-2.198395851049569
 20
8.045497703298977
 30
0.0
 11
-2.490854545933479
 21
7.265607850275216
 31
0.0
  0
LINE
  5
69
330
1F
100
AcDbEntity
  8
Swivel Bolt [4]
  6
Continuous
 62
     2
370
     0
100
AcDbLine
 10
-1.655646202173087
 20
8.045497703298977
 30
0.0
 11
-2.198395851049569
 21
8.045497703298977
 31
0.0
  0
LINE
  5
6A
330
1F
100
AcDbEntity
  8
Swivel Bolt [4]
  6
Continuous
 62
     2
370
     0
100
AcDbLine
 10
-0.4722434623163725
 20
10.59450753779774
 30
0.0
 11
-0.5899638788545688
 21
11.29132598647955
 31
0.0
  0
LINE
  5
6B
330
1F
100
AcDbEntity
  8
Swivel Bolt [4]
  6
Continuous
 62
     2
370
     0
100
AcDbLine
 10
-0.8666546767963536
 20
10.52787575940015
 30
0.0
 11
-0.9709264570891828
 21
11.14508815400091
 31
0.0
  0
LINE
  5
6C
330
1F
100
AcDbEntity
  8
Swivel Bolt [4]
  6
Continuous
 62
     2
370
     0
100
AcDbLine
 10
-0.8336199953250771
 20
12.68856776887769
 30
0.0
 11
-0.77848831290529
 21
12.66238575991039
 31
0.0
  0
LINE
  5
6D
330
1F
100
AcDbEntity
  8
Swivel Bolt [4]
  6
Continuous
 62
     2
370
     0
100
AcDbLine
 10
-0.7355092775320304
 20
12.15284790342159
 30
0.0
 11
-0.8253502429621091
 21
12.6846404675326
 31
0.0
  0
LINE
  5
6E
330
1F
100
AcDbEntity
  8
Swivel Bolt [4]
  6
Continuous
 62
     2
370
     0
100
AcDbLine
 10
-1.213240789262059
 20
12.62443468217001
 30
0.0
 11
-0.8336199953250771
 21
12.68856776887769
 31
0.0
  0
LINE
  5
6F
330
1F
100
AcDbEntity
  8
Swivel Bolt [4]
  6
Continuous
 62
     2
370
     0
100
AcDbLine
 10
-1.213240789262059
 20
12.62443468217001
 30
0.0
 11
-1.256711910462268
 21
12.58159472860331
 31
0.0
  0
LINE
  5
70
330
1F
100
AcDbEntity
  8
Swivel Bolt [4]
  6
Continuous
 62
     2
370
     0
100
AcDbLine
 10
-1.130734729919192
 20
12.09103581571168
 30
0.0
 11
-1.219761457442091
 21
12.618008689135
 31
0.0
  0
LINE
  5
71
330
1F
100
AcDbEntity
  8
Swivel Bolt [4]
  6
Continuous
 62
     2
370
     0
100
AcDbLine
 10
-0.9085608683348508
 20
10.52079613294541
 30
0.0
 11
-0.4303372707778733
 21
10.60158716425249
 31
0.0
  0
LINE
  5
72
330
1F
100
AcDbEntity
  8
Swivel Bolt [4]
  6
Continuous
 62
     2
370
     0
100
AcDbLine
 10
-1.256711910462267
 20
12.58159472860331
 30
0.0
 11
-0.7784883129052894
 21
12.66238575991039
 31
0.0
  0
LINE
  5
73
330
1F
100
AcDbEntity
  8
Swivel Bolt [4]
  6
Continuous
 62
     2
370
     0
100
AcDbLine
 10
-0.8253502429621086
 20
12.68464046753259
 30
0.0
 11
-1.21976145744209
 21
12.618008689135
 31
0.0
  0
LINE
  5
74
330
1F
100
AcDbEntity
  8
Swivel Bolt [4]
  6
Continuous
 62
     2
370
     0
100
AcDbLine
 10
-1.172727434235328
 20
12.0844682813925
 30
0.0
 11
-1.256711910462268
 21
12.58159472860331
 31
0.0
  0
LINE
  5
75
330
1F
100
AcDbEntity
  8
Swivel Bolt [4]
  6
Continuous
 62
     2
370
     0
100
AcDbLine
 10
-0.6935165732158943
 20
12.15941543774077
 30
0.0
 11
-0.7784883129052901
 21
12.66238575991039
 31
0.0
  0
LINE
  5
76
330
1F
100
AcDbEntity
  8
Swivel Bolt [4]
  6
Continuous
 62
     2
370
     0
100
AcDbLine
 10
-0.358414940274031
 20
10.17585976503787
 30
0.0
 11
-0.5494866049171414
 21
11.30686375618041
 31
0.0
  0
LINE
  5
77
330
1F
100
AcDbEntity
  8
Swivel Bolt [4]
  6
Continuous
 62
     2
370
     0
100
AcDbLine
 10
-0.8366385378310089
 20
10.09506873373079
 30
0.0
 11
-1.01140373102662
 21
11.12955038430011
 31
0.0
  0
ARC
  5
78
330
1F
100
AcDbEntity
  8
Swivel Bolt [4]
  6
Continuous
 62
     2
370
     0
100
AcDbCircle
 10
-1.927021026611328
 20
7.170497703298977
 30
0.0
 40
1.0
100
AcDbArc
 50
220.061731805744
 51
319.938268194256
  0
ARC
  5
79
330
1F
100
AcDbEntity
  8
Swivel Bolt [4]
  6
Continuous
 62
     2
370
     0
100
AcDbCircle
 10
-2.022689957148957
 20
7.09004612948102
 30
0.0
 40
0.875
100
AcDbArc
 50
159.4439547804165
 51
220.0617318057439
  0
ARC
  5
7A
330
1F
100
AcDbEntity
  8
Swivel Bolt [4]
  6
Continuous
 62
     2
370
     0
100
AcDbCircle
 10
-2.022689957148957
 20
7.09004612948102
 30
0.0
 40
0.5
100
AcDbArc
 50
159.4439547804165
 51
220.0617318057439
  0
ARC
  5
7B
330
1F
100
AcDbEntity
  8
Swivel Bolt [4]
  6
Continuous
 62
     2
370
     0
100
AcDbCircle
 10
-1.831352096073699
 20
7.09004612948102
 30
0.0
 40
0.5
100
AcDbArc
 50
319.9382681942558
 51
20.55604521958339
  0
ARC
  5
7C
330
1F
100
AcDbEntity
  8
Swivel Bolt [4]
  6
Continuous
 62
     2
370
     0
100
AcDbCircle
 10
-1.831352096073699
 20
7.09004612948102
 30
0.0
 40
0.875
100
AcDbArc
 50
319.938268194256
 51
20.55604521958348
  0
ARC
  5
7D
330
1F
100
AcDbEntity
  8
Swivel Bolt [4]
  6
Continuous
 62
     2
370
     0
100
AcDbCircle
 10
-1.927021026611328
 20
7.170497703298977
 30
0.0
 40
0.625
100
AcDbArc
 50
220.0617318057439
 51
319.9382681942559
  0
CIRCLE
  5
7E
330
1F
100
AcDbEntity
  8
Swivel Bolt [4]
  6
Continuous
 62
     2
370
     0
100
AcDbCircle
 10
-0.5320210266113286
 20
9.747718518733977
 30
0.0
 40
0.2
  0
LINE
  5
7F
330
1F
100
AcDbEntity
  8
Swivel Bolt [4]
  6
Continuous
 62
    44
370
     0
100
AcDbLine
 10
-1.181300051249154
 20
11.51378972637967
 30
0.0
 11
-0.5094669419013684
 21
11.61886243065669
 31
0.0
  0
LINE
  5
80
330
1F
100
AcDbEntity
  8
Swivel Bolt [4]
  6
Continuous
 62
    44
370
     0
100
AcDbLine
 10
-0.6787262310455149
 20
12.16172860335795
 30
0.0
 11
-1.185874280210372
 21
12.08241215370232
 31
0.0
  0
LINE
  5
81
330
1F
100
AcDbEntity
  8
Swivel Bolt [4]
  6
Continuous
 62
    44
370
     0
100
AcDbLine
 10
-0.3459370650723232
 20
12.42051654486964
 30
0.0
 11
-0.6551400265845673
 21
12.17214669117177
 31
0.0
  0
LINE
  5
82
330
1F
100
AcDbEntity
  8
Swivel Bolt [4]
  6
Continuous
 62
    44
370
     0
100
AcDbLine
 10
-1.581786713943525
 20
12.22723332783264
 30
0.0
 11
-1.211515105981559
 21
12.08513128009544
 31
0.0
  0
LINE
  5
83
330
1F
100
AcDbEntity
  8
Swivel Bolt [4]
  6
Continuous
 62
    44
370
     0
100
AcDbLine
 10
-0.5073129773725056
 20
11.66980711081869
 30
0.0
 11
-0.5011322300620922
 21
11.63028751615117
 31
0.0
  0
LINE
  5
84
330
1F
100
AcDbEntity
  8
Swivel Bolt [4]
  6
Continuous
 62
    44
370
     0
100
AcDbLine
 10
-1.632731501419299
 20
11.74683402645431
 30
0.0
 11
-1.484533021416113
 21
11.77001182886836
 31
0.0
  0
LINE
  5
85
330
1F
100
AcDbEntity
  8
Swivel Bolt [4]
  6
Continuous
 62
    44
370
     0
100
AcDbLine
 10
-0.2989451813906068
 20
11.95543424818075
 30
0.0
 11
-0.1507467013874194
 21
11.9786120505948
 31
0.0
  0
LINE
  5
86
330
1F
100
AcDbEntity
  8
Swivel Bolt [4]
  6
Continuous
 62
    44
370
     0
100
AcDbLine
 10
-1.19890588405405
 20
11.56164403288646
 30
0.0
 11
-1.192725136743636
 21
11.52212443821895
 31
0.0
  0
ARC
  5
87
330
1F
100
AcDbEntity
  8
Swivel Bolt [4]
  6
Continuous
 62
    44
370
     0
100
AcDbCircle
 10
-0.189376372077501
 20
12.22560951726678
 30
0.0
 40
0.25
100
AcDbArc
 50
278.8888825069832
 51
128.773461856591
  0
ARC
  5
88
330
1F
100
AcDbEntity
  8
Swivel Bolt [4]
  6
Continuous
 62
    44
370
     0
100
AcDbCircle
 10
-0.2603155107005253
 20
11.70843678150877
 30
0.0
 40
0.25
100
AcDbArc
 50
98.88888250698325
 51
188.8888825069832
  0
ARC
  5
89
330
1F
100
AcDbEntity
  8
Swivel Bolt [4]
  6
Continuous
 62
    44
370
     0
100
AcDbCircle
 10
-1.193600214348388
 20
12.13181164703671
 30
0.0
 40
0.05
100
AcDbArc
 50
249.0043031573774
 51
278.8888825069843
  0
ARC
  5
8A
330
1F
100
AcDbEntity
  8
Swivel Bolt [4]
  6
Continuous
 62
    44
370
     0
100
AcDbCircle
 10
-0.68645216518353
 20
12.21112809669234
 30
0.0
 40
0.05
100
AcDbArc
 50
278.8888825069831
 51
308.773461856591
  0
ARC
  5
8B
330
1F
100
AcDbEntity
  8
Swivel Bolt [4]
  6
Continuous
 62
    44
370
     0
100
AcDbCircle
 10
-1.671361172109381
 20
11.99383149312629
 30
0.0
 40
0.25
100
AcDbArc
 50
69.00430315737582
 51
278.8888825069832
  0
ARC
  5
8C
330
1F
100
AcDbEntity
  8
Swivel Bolt [4]
  6
Continuous
 62
    44
370
     0
100
AcDbCircle
 10
-1.44590335072603
 20
11.52301436219638
 30
0.0
 40
0.25
100
AcDbArc
 50
8.888882506982723
 51
98.88888250698352
  0
ARC
  5
8D
330
1F
100
AcDbEntity
  8
Swivel Bolt [4]
  6
Continuous
 62
    44
370
     0
100
AcDbCircle
 10
-1.182845238076758
 20
11.52366962504655
 30
0.0
 40
0.01
100
AcDbArc
 50
188.8888825069783
 51
278.8888825069833
  0
ARC
  5
8E
330
1F
100
AcDbEntity
  8
Swivel Bolt [4]
  6
Continuous
 62
    44
370
     0
100
AcDbCircle
 10
-0.5110121287289715
 20
11.62874232932357
 30
0.0
 40
0.01
100
AcDbArc
 50
278.8888825069833
 51
8.888882506978318
  0
ARC
  5
8F
330
1F
100
AcDbEntity
  8
Swivel Bolt [4]
  6
DASHED
 62
     1
370
     0
100
AcDbCircle
 10
-3.322021026611328
 20
9.747718518733977
 30
0.0
 40
0.462
100
AcDbArc
 50
119.952086291608
 51
21.00000000000009
  0
ARC
  5
90
330
1F
100
AcDbEntity
  8
Swivel Bolt [4]
  6
DASHED
 62
     1
370
     0
100
AcDbCircle
 10
-1.927275078607068
 20
10.23812099730979
 30
0.0
 40
1.01672
100
AcDbArc
 50
194.4754976846454
 51
198.6323594004004
  0
LINE
  5
91
330
1F
100
AcDbEntity
  8
Swivel Bolt [4]
  6
Continuous
 62
     1
370
     0
100
AcDbLine
 10
-0.2362005923526002
 20
11.42712298908358
 30
0.0
 11
-1.218351835449845
 21
11.05011044989322
 31
0.0
  0
LINE
  5
92
330
1F
100
AcDbEntity
  8
Swivel Bolt [4]
  6
Continuous
 62
     1
370
     0
100
AcDbLine
 10
-1.711030590757322
 20
11.54709933168916
 30
0.0
 11
-1.363833386982912
 21
11.48974201756016
 31
0.0
  0
LINE
  5
93
330
1F
100
AcDbEntity
  8
Swivel Bolt [4]
  6
Continuous
 62
     1
370
     0
100
AcDbLine
 10
-1.333970205112218
 20
11.45448710289419
 30
0.0
 11
-0.345980338424297
 21
11.60900578565451
 31
0.0
  0
LINE
  5
94
330
1F
100
AcDbEntity
  8
Swivel Bolt [4]
  6
Continuous
 62
     1
370
     0
100
AcDbLine
 10
-0.3367324600331342
 20
11.71166773939231
 30
0.0
 11
-0.3131335871984435
 21
11.71535853306135
 31
0.0
  0
LINE
  5
95
330
1F
100
AcDbEntity
  8
Swivel Bolt [4]
  6
Continuous
 62
     1
370
     0
100
AcDbLine
 10
-0.3251435588261076
 20
11.63756849939072
 30
0.0
 11
-0.3367324600331364
 21
11.71166773939233
 31
0.0
  0
LINE
  5
96
330
1F
100
AcDbEntity
  8
Swivel Bolt [4]
  6
Continuous
 62
     1
370
     0
100
AcDbLine
 10
-1.362532918848423
 20
11.47532388249238
 30
0.0
 11
-1.364813187425775
 21
11.48990388154171
 31
0.0
  0
ARC
  5
97
330
1F
100
AcDbEntity
  8
Swivel Bolt [4]
  6
Continuous
 62
     1
370
     0
100
AcDbCircle
 10
-1.927275078607068
 20
10.23812099730979
 30
0.0
 40
1.01672
100
AcDbArc
 50
54.43049496632826
 51
194.4754976846454
  0
ARC
  5
98
330
1F
100
AcDbEntity
  8
Swivel Bolt [4]
  6
Continuous
 62
     1
370
     0
100
AcDbCircle
 10
-1.927275078607068
 20
10.23812099730979
 30
0.0
 40
1.32672
100
AcDbArc
 50
80.61940582775416
 51
164.3640321380192
  0
ARC
  5
99
330
1F
100
AcDbEntity
  8
Swivel Bolt [4]
  6
Continuous
 62
     1
370
     0
100
AcDbCircle
 10
-3.927143065696907
 20
10.79784770974474
 30
0.0
 40
0.75
100
AcDbArc
 50
299.9520862916079
 51
344.3640321380192
  0
ARC
  5
9A
330
1F
100
AcDbEntity
  8
Swivel Bolt [4]
  6
Continuous
 62
     1
370
     0
100
AcDbCircle
 10
-0.2899557847843949
 20
11.56716005305816
 30
0.0
 40
0.15
100
AcDbArc
 50
290.9999999999999
 51
98.88888250698298
  0
ARC
  5
9B
330
1F
100
AcDbEntity
  8
Swivel Bolt [4]
  6
Continuous
 62
     1
370
     0
100
AcDbCircle
 10
-0.3498433054933056
 20
11.63370553232171
 30
0.0
 40
0.025
100
AcDbArc
 50
278.8888825069849
 51
8.888882506986429
  0
ARC
  5
9C
330
1F
100
AcDbEntity
  8
Swivel Bolt [4]
  6
Continuous
 62
     1
370
     0
100
AcDbCircle
 10
-1.337833172181225
 20
11.47918684956138
 30
0.0
 40
0.025
100
AcDbArc
 50
188.8888825069823
 51
278.8888825069836
  0
ARC
  5
9D
330
1F
100
AcDbEntity
  8
Swivel Bolt [4]
  6
Continuous
 62
     1
370
     0
100
AcDbCircle
 10
-1.263147829143008
 20
11.16680800320537
 30
0.0
 40
0.125
100
AcDbArc
 50
234.4304949663285
 51
291.0
  0
CIRCLE
  5
9E
330
1F
100
AcDbEntity
  8
Swivel Bolt [4]
  6
Continuous
 62
     1
370
     0
100
AcDbCircle
 10
-3.322021026611328
 20
9.747718518733977
 30
0.0
 40
0.2
  0
POINT
  5
9F
330
1F
100
AcDbEntity
  8
Swivel Bolt [4]
  6
Continuous
 62
     1
370
     0
100
AcDbPoint
 10
-1.927275078607068
 20
10.23812099730979
 30
0.0
  0
LINE
  5
A0
330
1F
100
AcDbEntity
  8
Swivel Bolt [4]
  6
Continuous
 62
     3
370
     0
100
AcDbLine
 10
-0.9520210266113285
 20
8.670497703298977
 30
0.0
 11
-2.902021026611328
 21
8.670497703298977
 31
0.0
  0
LINE
  5
A1
330
1F
100
AcDbEntity
  8
Swivel Bolt [4]
  6
Continuous
 62
     3
370
     0
100
AcDbLine
 10
-0.9270210266113281
 20
8.885733020016048
 30
0.0
 11
-0.9270210266113281
 21
8.695497703298978
 31
0.0
  0
LINE
  5
A2
330
1F
100
AcDbEntity
  8
Swivel Bolt [4]
  6
Continuous
 62
     3
370
     0
100
AcDbLine
 10
-2.927021026611328
 20
8.885733020016048
 30
0.0
 11
-2.927021026611328
 21
8.695497703298978
 31
0.0
  0
ARC
  5
A3
330
1F
100
AcDbEntity
  8
Swivel Bolt [4]
  6
Continuous
 62
     3
370
     0
100
AcDbCircle
 10
-3.322021026611328
 20
9.747718518733977
 30
0.0
 40
0.462
100
AcDbArc
 50
19.3723322167775
 51
269.6676560277976
  0
ARC
  5
A4
330
1F
100
AcDbEntity
  8
Swivel Bolt [4]
  6
Continuous
 62
     3
370
     0
100
AcDbCircle
 10
-1.927021026611328
 20
10.23821851873398
 30
0.0
 40
1.016720815435
100
AcDbArc
 50
199.3723322167776
 51
340.6276677832224
  0
ARC
  5
A5
330
1F
100
AcDbEntity
  8
Swivel Bolt [4]
  6
Continuous
 62
     3
370
     0
100
AcDbCircle
 10
-3.327021026611329
 20
8.885733020016048
 30
0.0
 40
0.4
100
AcDbArc
 50
0.0
 51
89.66765602779755
  0
ARC
  5
A6
330
1F
100
AcDbEntity
  8
Swivel Bolt [4]
  6
Continuous
 62
     3
370
     0
100
AcDbCircle
 10
-0.5320210266113281
 20
9.747718518733977
 30
0.0
 40
0.462
100
AcDbArc
 50
270.3323439722024
 51
160.6276677832225
  0
ARC
  5
A7
330
1F
100
AcDbEntity
  8
Swivel Bolt [4]
  6
Continuous
 62
     3
370
     0
100
AcDbCircle
 10
-0.5270210266113279
 20
8.885733020016048
 30
0.0
 40
0.4
100
AcDbArc
 50
90.33234397220238
 51
180.0
  0
ARC
  5
A8
330
1F
100
AcDbEntity
  8
Swivel Bolt [4]
  6
Continuous
 62
     3
370
     0
100
AcDbCircle
 10
-0.9520210266113285
 20
8.695497703298978
 30
0.0
 40
0.025
100
AcDbArc
 50
270.0
 51
0.0
  0
ARC
  5
A9
330
1F
100
AcDbEntity
  8
Swivel Bolt [4]
  6
Continuous
 62
     3
370
     0
100
AcDbCircle
 10
-2.902021026611328
 20
8.695497703298978
 30
0.0
 40
0.025
100
AcDbArc
 50
180.0
 51
270.0
  0
CIRCLE
  5
AA
330
1F
100
AcDbEntity
  8
Swivel Bolt [4]
  6
Continuous
 62
     3
370
     0
100
AcDbCircle
 10
-1.927021026611328
 20
8.950497703298979
 30
0.0
 40
0.11
  0
CIRCLE
  5
AB
330
1F
100
AcDbEntity
  8
Swivel Bolt [4]
  6
Continuous
 62
     3
370
     0
100
AcDbCircle
 10
-0.5320210266113281
 20
9.747718518733977
 30
0.0
 40
0.1875
  0
CIRCLE
  5
AC
330
1F
100
AcDbEntity
  8
Swivel Bolt [4]
  6
Continuous
 62
     3
370
     0
100
AcDbCircle
 10
-3.322021026611328
 20
9.747718518733977
 30
0.0
 40
0.1875
  0
POINT
  5
AD
330
1F
100
AcDbEntity
  8
Swivel Bolt [4]
  6
Continuous
 62
     3
370
     0
100
AcDbPoint
 10
-1.927021026611328
 20
10.23821851873398
 30
0.0
  0
LINE
  5
AE
330
1F
100
AcDbEntity
  8
Swivel Bolt [4]
  6
DASHED
 62
     2
370
     0
100
AcDbLine
 10
-0.3458997572462214
 20
10.10177906876734
 30
0.0
 11
-0.8241233548031993
 21
10.02098803746026
 31
0.0
  0
LINE
  5
AF
330
1F
100
AcDbEntity
  8
Swivel Bolt [4]
  6
DASHED
 62
     2
370
     0
100
AcDbLine
 10
-0.3458997572462214
 20
10.10177906876734
 30
0.0
 11
-0.358414940274031
 21
10.17585976503787
 31
0.0
  0
LINE
  5
B0
330
1F
100
AcDbEntity
  8
Swivel Bolt [4]
  6
DASHED
 62
     2
370
     0
100
AcDbLine
 10
-1.011403731026611
 20
11.12955038430006
 30
0.0
 11
-1.172727434235327
 21
12.0844682813925
 31
0.0
  0
LINE
  5
B1
330
1F
100
AcDbEntity
  8
Swivel Bolt [4]
  6
DASHED
 62
     2
370
     0
100
AcDbLine
 10
-0.5494866049171405
 20
11.3068637561804
 30
0.0
 11
-0.6935165732158947
 21
12.15941543774077
 31
0.0
  0
LINE
  5
B2
330
1F
100
AcDbEntity
  8
Swivel Bolt [4]
  6
DASHED
 62
     2
370
     0
100
AcDbLine
 10
-0.9709264570891831
 20
11.14508815400091
 30
0.0
 11
-1.130734729919192
 21
12.09103581571168
 31
0.0
  0
LINE
  5
B3
330
1F
100
AcDbEntity
  8
Swivel Bolt [4]
  6
DASHED
 62
     2
370
     0
100
AcDbLine
 10
-0.5899638788545686
 20
11.29132598647955
 30
0.0
 11
-0.7355092775320308
 21
12.15284790342159
 31
0.0
  0
LINE
  5
B4
330
1F
100
AcDbEntity
  8
Swivel Bolt [4]
  6
DASHED
 62
     2
370
     0
100
AcDbLine
 10
-0.8241233548031993
 20
10.02098803746026
 30
0.0
 11
-0.8366385378310089
 21
10.09506873373079
 31
0.0
  0
ARC
  5
B5
330
1F
100
AcDbEntity
  8
Swivel Bolt [4]
  6
DASHED
 62
     2
370
     0
100
AcDbCircle
 10
-0.5320210266113286
 20
9.747718518733977
 30
0.0
 40
0.4
100
AcDbArc
 50
136.9078446746483
 51
62.2701553253514
  0
CIRCLE
  5
B6
330
1F
100
AcDbEntity
  8
Swivel Bolt [4]
  6
DASHED
 62
     2
370
     0
100
AcDbCircle
 10
-0.5320210266113286
 20
9.747718518733977
 30
0.0
 40
0.2815
  0
LINE
  5
B7
330
1F
100
AcDbEntity
  8
Swivel Bolt [4]
  6
Continuous
 62
     4
370
     0
100
AcDbLine
 10
-1.339378359008818
 20
11.48906674822819
 30
0.0
 11
-0.3513884923208973
 21
11.64358543098852
 31
0.0
  0
LINE
  5
B8
330
1F
100
AcDbEntity
  8
Swivel Bolt [4]
  6
Continuous
 62
     4
370
     0
100
AcDbLine
 10
-1.333970205112218
 20
11.45448710289419
 30
0.0
 11
-0.345980338424297
 21
11.60900578565451
 31
0.0
  0
LINE
  5
B9
330
1F
100
AcDbEntity
  8
Swivel Bolt [4]
  6
Continuous
 62
     4
370
     0
100
AcDbLine
 10
-1.339378359008818
 20
11.48906674822819
 30
0.0
 11
-1.333970205112217
 21
11.45448710289419
 31
0.0
  0
LINE
  5
BA
330
1F
100
AcDbEntity
  8
Swivel Bolt [4]
  6
Continuous
 62
     4
370
     0
100
AcDbLine
 10
-0.3513884923208973
 20
11.64358543098852
 30
0.0
 11
-0.345980338424297
 21
11.60900578565451
 31
0.0
  0
VIEWPORT
  5
BC
330
1B
100
AcDbEntity
 67
     1
  8
0
 62
     2
100
AcDbViewport
 10
5.25
 20
4.0
 30
0.0
 40
11.638
 41
8.993
 68
     1
 69
     1
 12
5.25
 22
4.0
 13
0.0
 23
0.0
 14
0.5
 24
0.5
 15
0.5
 25
0.5
 16
0.0
 26
0.0
 36
1.0
 17
0.0
 27
0.0
 37
0.0
 42
50.0
 43
0.0
 44
0.0
 45
8.993
 50
0.0
 51
0.0
 72
   100
 90
   557152
  1

281
     0
 71
     1
 74
     0
110
0.0
120
0.0
130
0.0
111
1.0
121
0.0
131
0.0
112
0.0
122
1.0
132
0.0
 79
     0
146
0.0
  0
ENDSEC
  0
SECTION
  2
OBJECTS
  0
DICTIONARY
  5
C
330
0
100
AcDbDictionary
281
     1
  3
ACAD_GROUP
350
D
  3
ACAD_LAYOUT
350
1A
  3
ACAD_MLEADERSTYLE
350
BE
  3
ACAD_MLINESTYLE
350
17
  3
ACAD_PLOTSETTINGS
350
19
  3
ACAD_PLOTSTYLENAME
350
E
  3
ACAD_SCALELIST
350
BF
  3
ACAD_TABLESTYLE
350
BD
  3
ACAD_VISUALSTYLE
350
2A
  3
KeyCreatorLevelsByLayouts
350
BB
  0
DICTIONARY
  5
D
102
{ACAD_REACTORS
330
C
102
}
330
C
100
AcDbDictionary
281
     1
  0
DICTIONARY
  5
1A
102
{ACAD_REACTORS
330
C
102
}
330
C
100
AcDbDictionary
281
     1
  3
Layout1
350
1E
  3
Model
350
22
  0
DICTIONARY
  5
BE
102
{ACAD_REACTORS
330
C
102
}
330
C
100
AcDbDictionary
281
     1
  0
DICTIONARY
  5
17
102
{ACAD_REACTORS
330
C
102
}
330
C
100
AcDbDictionary
281
     1
  3
Standard
350
18
  0
DICTIONARY
  5
19
102
{ACAD_REACTORS
330
C
102
}
330
C
100
AcDbDictionary
281
     1
  0
ACDBDICTIONARYWDFLT
  5
E
102
{ACAD_REACTORS
330
C
102
}
330
C
100
AcDbDictionary
281
     1
  3
Normal
350
F
100
AcDbDictionaryWithDefault
340
F
  0
DICTIONARY
  5
BF
102
{ACAD_REACTORS
330
C
102
}
330
C
100
AcDbDictionary
281
     1
  3
A0
350
C0
  3
A1
350
C1
  3
A2
350
C2
  3
A3
350
C3
  3
A4
350
C4
  3
A5
350
C5
  3
A6
350
C6
  3
A7
350
C7
  3
A8
350
C8
  3
A9
350
C9
  3
B0
350
CA
  3
B1
350
CB
  3
B2
350
CC
  3
B3
350
CD
  3
B4
350
CE
  3
B5
350
CF
  3
B6
350
D0
  3
B7
350
D1
  3
B8
350
D2
  3
B9
350
D3
  3
C0
350
D4
  3
C1
350
D5
  3
C2
350
D6
  3
C3
350
D7
  3
C4
350
D8
  3
C5
350
D9
  3
C6
350
DA
  3
C7
350
DB
  3
C8
350
DC
  3
C9
350
DD
  3
D0
350
DE
  3
D1
350
DF
  3
D2
350
E0
  0
DICTIONARY
  5
BD
102
{ACAD_REACTORS
330
C
102
}
330
C
100
AcDbDictionary
281
     1
  0
DICTIONARY
  5
2A
102
{ACAD_REACTORS
330
C
102
}
330
C
100
AcDbDictionary
281
     1
  3
2dWireframe
350
2F
  3
3D Hidden
350
31
  3
3dWireframe
350
30
  3
Basic
350
32
  3
Brighten
350
36
  3
ColorChange
350
3A
  3
Conceptual
350
34
  3
Dim
350
35
  3
Facepattern
350
39
  3
Flat
350
2B
  3
FlatWithEdges
350
2C
  3
Gouraud
350
2D
  3
GouraudWithEdges
350
2E
  3
Linepattern
350
38
  3
Realistic
350
33
  3
Thicken
350
37
  0
DICTIONARY
  5
BB
102
{ACAD_REACTORS
330
C
102
}
330
C
100
AcDbDictionary
281
     1
  0
LAYOUT
  5
1E
102
{ACAD_REACTORS
330
1A
102
}
330
1A
100
AcDbPlotSettings
  1

  2
none_device
  4
Letter_(8.50_x_11.00_Inches)
  6

 40
6.35
 41
6.35
 42
6.35001
 43
6.35001
 44
215.9
 45
279.4
 46
0.0
 47
0.0
 48
0.0
 49
0.0
140
0.0
141
0.0
142
1.0
143
1.0
 70
   688
 72
     0
 73
     1
 74
     5
  7

 75
    16
147
1.0
148
0.0
149
0.0
100
AcDbLayout
  1
Layout1
 70
     1
 71
     1
 10
-0.25
 20
-0.25
 11
10.75
 21
8.25
 12
0.0
 22
0.0
 32
0.0
 14
1.000000000000000E+20
 24
1.000000000000000E+20
 34
1.000000000000000E+20
 15
-1.000000000000000E+20
 25
-1.000000000000000E+20
 35
-1.000000000000000E+20
146
0.0
 13
0.0
 23
0.0
 33
0.0
 16
1.0
 26
0.0
 36
0.0
 17
0.0
 27
1.0
 37
0.0
 76
     0
330
1B
331
BC
  0
LAYOUT
  5
22
102
{ACAD_REACTORS
330
1A
102
}
330
1A
100
AcDbPlotSettings
  1

  2
none_device
  4
Letter_(8.50_x_11.00_Inches)
  6

 40
6.35
 41
6.35
 42
6.35000508
 43
6.35000508
 44
215.9
 45
279.4
 46
0.0
 47
0.0
 48
0.0
 49
0.0
140
0.0
141
0.0
142
1.0
143
2.219594649946486
 70
  1712
 72
     0
 73
     0
 74
     0
  7

 75
     0
147
0.4505327132700153
148
0.0
149
0.0
100
AcDbLayout
  1
Model
 70
     1
 71
     0
 10
0.0
 20
0.0
 11
12.0
 21
9.0
 12
0.0
 22
0.0
 32
0.0
 14
1.000000000000000E+20
 24
1.000000000000000E+20
 34
1.000000000000000E+20
 15
-1.000000000000000E+20
 25
-1.000000000000000E+20
 35
-1.000000000000000E+20
146
0.0
 13
0.0
 23
0.0
 33
0.0
 16
1.0
 26
0.0
 36
0.0
 17
0.0
 27
1.0
 37
0.0
 76
     0
330
1F
331
29
  0
MLINESTYLE
  5
18
102
{ACAD_REACTORS
330
17
102
}
330
17
100
AcDbMlineStyle
  2
Standard
 70
     0
  3

 62
   256
 51
90.0
 52
90.0
 71
     2
 49
0.5
 62
   256
  6
BYLAYER
 49
-0.5
 62
   256
  6
BYLAYER
  0
ACDBPLACEHOLDER
  5
F
102
{ACAD_REACTORS
330
E
102
}
330
E
  0
SCALE
  5
C0
102
{ACAD_REACTORS
330
BF
102
}
330
BF
100
AcDbScale
 70
     0
300
1:1
140
1.0
141
1.0
290
     1
  0
SCALE
  5
C1
102
{ACAD_REACTORS
330
BF
102
}
330
BF
100
AcDbScale
 70
     0
300
1:2
140
1.0
141
2.0
290
     0
  0
SCALE
  5
C2
102
{ACAD_REACTORS
330
BF
102
}
330
BF
100
AcDbScale
 70
     0
300
1:4
140
1.0
141
4.0
290
     0
  0
SCALE
  5
C3
102
{ACAD_REACTORS
330
BF
102
}
330
BF
100
AcDbScale
 70
     0
300
1:5
140
1.0
141
5.0
290
     0
  0
SCALE
  5
C4
102
{ACAD_REACTORS
330
BF
102
}
330
BF
100
AcDbScale
 70
     0
300
1:8
140
1.0
141
8.0
290
     0
  0
SCALE
  5
C5
102
{ACAD_REACTORS
330
BF
102
}
330
BF
100
AcDbScale
 70
     0
300
1:10
140
1.0
141
10.0
290
     0
  0
SCALE
  5
C6
102
{ACAD_REACTORS
330
BF
102
}
330
BF
100
AcDbScale
 70
     0
300
1:16
140
1.0
141
16.0
290
     0
  0
SCALE
  5
C7
102
{ACAD_REACTORS
330
BF
102
}
330
BF
100
AcDbScale
 70
     0
300
1:20
140
1.0
141
20.0
290
     0
  0
SCALE
  5
C8
102
{ACAD_REACTORS
330
BF
102
}
330
BF
100
AcDbScale
 70
     0
300
1:30
140
1.0
141
30.0
290
     0
  0
SCALE
  5
C9
102
{ACAD_REACTORS
330
BF
102
}
330
BF
100
AcDbScale
 70
     0
300
1:40
140
1.0
141
40.0
290
     0
  0
SCALE
  5
CA
102
{ACAD_REACTORS
330
BF
102
}
330
BF
100
AcDbScale
 70
     0
300
1:50
140
1.0
141
50.0
290
     0
  0
SCALE
  5
CB
102
{ACAD_REACTORS
330
BF
102
}
330
BF
100
AcDbScale
 70
     0
300
1:100
140
1.0
141
100.0
290
     0
  0
SCALE
  5
CC
102
{ACAD_REACTORS
330
BF
102
}
330
BF
100
AcDbScale
 70
     0
300
2:1
140
2.0
141
1.0
290
     0
  0
SCALE
  5
CD
102
{ACAD_REACTORS
330
BF
102
}
330
BF
100
AcDbScale
 70
     0
300
4:1
140
4.0
141
1.0
290
     0
  0
SCALE
  5
CE
102
{ACAD_REACTORS
330
BF
102
}
330
BF
100
AcDbScale
 70
     0
300
8:1
140
8.0
141
1.0
290
     0
  0
SCALE
  5
CF
102
{ACAD_REACTORS
330
BF
102
}
330
BF
100
AcDbScale
 70
     0
300
10:1
140
10.0
141
1.0
290
     0
  0
SCALE
  5
D0
102
{ACAD_REACTORS
330
BF
102
}
330
BF
100
AcDbScale
 70
     0
300
100:1
140
100.0
141
1.0
290
     0
  0
SCALE
  5
D1
102
{ACAD_REACTORS
330
BF
102
}
330
BF
100
AcDbScale
 70
     0
300
1/128" = 1'-0"
140
0.0078125
141
12.0
290
     0
  0
SCALE
  5
D2
102
{ACAD_REACTORS
330
BF
102
}
330
BF
100
AcDbScale
 70
     0
300
1/64" = 1'-0"
140
0.015625
141
12.0
290
     0
  0
SCALE
  5
D3
102
{ACAD_REACTORS
330
BF
102
}
330
BF
100
AcDbScale
 70
     0
300
1/32" = 1'-0"
140
0.03125
141
12.0
290
     0
  0
SCALE
  5
D4
102
{ACAD_REACTORS
330
BF
102
}
330
BF
100
AcDbScale
 70
     0
300
1/16" = 1'-0"
140
0.0625
141
12.0
290
     0
  0
SCALE
  5
D5
102
{ACAD_REACTORS
330
BF
102
}
330
BF
100
AcDbScale
 70
     0
300
3/32" = 1'-0"
140
0.09375
141
12.0
290
     0
  0
SCALE
  5
D6
102
{ACAD_REACTORS
330
BF
102
}
330
BF
100
AcDbScale
 70
     0
300
1/8" = 1'-0"
140
0.125
141
12.0
290
     0
  0
SCALE
  5
D7
102
{ACAD_REACTORS
330
BF
102
}
330
BF
100
AcDbScale
 70
     0
300
3/16" = 1'-0"
140
0.1875
141
12.0
290
     0
  0
SCALE
  5
D8
102
{ACAD_REACTORS
330
BF
102
}
330
BF
100
AcDbScale
 70
     0
300
1/4" = 1'-0"
140
0.25
141
12.0
290
     0
  0
SCALE
  5
D9
102
{ACAD_REACTORS
330
BF
102
}
330
BF
100
AcDbScale
 70
     0
300
3/8" = 1'-0"
140
0.375
141
12.0
290
     0
  0
SCALE
  5
DA
102
{ACAD_REACTORS
330
BF
102
}
330
BF
100
AcDbScale
 70
     0
300
1/2" = 1'-0"
140
0.5
141
12.0
290
     0
  0
SCALE
  5
DB
102
{ACAD_REACTORS
330
BF
102
}
330
BF
100
AcDbScale
 70
     0
300
3/4" = 1'-0"
140
0.75
141
12.0
290
     0
  0
SCALE
  5
DC
102
{ACAD_REACTORS
330
BF
102
}
330
BF
100
AcDbScale
 70
     0
300
1" = 1'-0"
140
1.0
141
12.0
290
     0
  0
SCALE
  5
DD
102
{ACAD_REACTORS
330
BF
102
}
330
BF
100
AcDbScale
 70
     0
300
1-1/2" = 1'-0"
140
1.5
141
12.0
290
     0
  0
SCALE
  5
DE
102
{ACAD_REACTORS
330
BF
102
}
330
BF
100
AcDbScale
 70
     0
300
3" = 1'-0"
140
3.0
141
12.0
290
     0
  0
SCALE
  5
DF
102
{ACAD_REACTORS
330
BF
102
}
330
BF
100
AcDbScale
 70
     0
300
6" = 1'-0"
140
6.0
141
12.0
290
     0
  0
SCALE
  5
E0
102
{ACAD_REACTORS
330
BF
102
}
330
BF
100
AcDbScale
 70
     0
300
1'-0" = 1'-0"
140
12.0
141
12.0
290
     0
  0
VISUALSTYLE
  5
2F
102
{ACAD_REACTORS
330
2A
102
}
330
2A
100
AcDbVisualStyle
  2
2dWireframe
 70
     4
 71
     0
 72
     2
 73
     0
 90
        0
 40
-0.6
 41
-30.0
 62
     5
 63
     7
 74
     1
 91
        4
 64
     7
 65
   257
 75
     1
175
     1
 42
1.0
 92
        0
 66
   257
 43
1.0
 76
     1
 77
     6
 78
     2
 67
     7
 79
     5
170
     0
171
     0
290
     0
174
     0
 93
        1
 44
0.0
173
     0
291
     0
 45
0.0
1001
ACAD
1000
AcDbSavedByObjectVersion
1070
     0
  0
VISUALSTYLE
  5
31
102
{ACAD_REACTORS
330
2A
102
}
330
2A
100
AcDbVisualStyle
  2
3D Hidden
 70
     6
 71
     1
 72
     2
 73
     2
 90
        0
 40
-0.6
 41
-30.0
 62
     5
 63
     7
 74
     2
 91
        2
 64
     7
 65
   257
 75
     2
175
     1
 42
40.0
 92
        0
 66
   257
 43
1.0
 76
     1
 77
     6
 78
     2
 67
     7
 79
     3
170
     0
171
     0
290
     0
174
     0
 93
        1
 44
0.0
173
     0
291
     0
 45
0.0
1001
ACAD
1000
AcDbSavedByObjectVersion
1070
     0
  0
VISUALSTYLE
  5
30
102
{ACAD_REACTORS
330
2A
102
}
330
2A
100
AcDbVisualStyle
  2
3dWireframe
 70
     5
 71
     0
 72
     2
 73
     0
 90
        0
 40
-0.6
 41
-30.0
 62
     5
 63
     7
 74
     1
 91
        4
 64
     7
 65
   257
 75
     1
175
     1
 42
1.0
 92
        0
 66
   257
 43
1.0
 76
     1
 77
     6
 78
     2
 67
     7
 79
     5
170
     0
171
     0
290
     0
174
     0
 93
        1
 44
0.0
173
     0
291
     0
 45
0.0
1001
ACAD
1000
AcDbSavedByObjectVersion
1070
     0
  0
VISUALSTYLE
  5
32
102
{ACAD_REACTORS
330
2A
102
}
330
2A
100
AcDbVisualStyle
  2
Basic
 70
     7
 71
     1
 72
     0
 73
     1
 90
        0
 40
-0.6
 41
-30.0
 62
     5
 63
     7
 74
     0
 91
        4
 64
     7
 65
   257
 75
     1
175
     1
 42
1.0
 92
        8
 66
     7
 43
1.0
 76
     1
 77
     6
 78
     2
 67
     7
 79
     5
170
     0
171
     0
290
     0
174
     0
 93
        1
 44
0.0
173
     0
291
     1
 45
0.0
1001
ACAD
1000
AcDbSavedByObjectVersion
1070
     0
  0
VISUALSTYLE
  5
36
102
{ACAD_REACTORS
330
2A
102
}
330
2A
100
AcDbVisualStyle
  2
Brighten
 70
    12
 71
     2
 72
     2
 73
     0
 90
        0
 40
-0.6
 41
-30.0
 62
     5
 63
     7
 74
     1
 91
        4
 64
     7
 65
   257
 75
     1
175
     1
 42
1.0
 92
        8
 66
     7
 43
1.0
 76
     1
 77
     6
 78
     2
 67
     7
 79
     5
170
     0
171
     0
290
     0
174
     0
 93
        1
 44
50.0
173
     0
291
     1
 45
0.0
1001
ACAD
1000
AcDbSavedByObjectVersion
1070
     0
  0
VISUALSTYLE
  5
3A
102
{ACAD_REACTORS
330
2A
102
}
330
2A
100
AcDbVisualStyle
  2
ColorChange
 70
    16
 71
     2
 72
     2
 73
     3
 90
        0
 40
-0.6
 41
-30.0
 62
     5
 63
     8
 74
     1
 91
        4
 64
     7
 65
   257
 75
     1
175
     1
 42
1.0
 92
        8
 66
     8
 43
1.0
 76
     1
 77
     6
 78
     2
 67
     7
 79
     5
170
     0
171
     0
290
     0
174
     0
 93
        1
 44
0.0
173
     0
291
     1
 45
0.0
1001
ACAD
1000
AcDbSavedByObjectVersion
1070
     0
  0
VISUALSTYLE
  5
34
102
{ACAD_REACTORS
330
2A
102
}
330
2A
100
AcDbVisualStyle
  2
Conceptual
 70
     9
 71
     3
 72
     2
 73
     0
 90
        0
 40
-0.6
 41
-30.0
 62
     5
 63
     7
 74
     2
 91
        2
 64
     7
 65
   257
 75
     1
175
     1
 42
40.0
 92
        8
 66
     7
 43
1.0
 76
     1
 77
     6
 78
     2
 67
     7
 79
     3
170
     0
171
     0
290
     0
174
     0
 93
        1
 44
0.0
173
     0
291
     0
 45
0.0
1001
ACAD
1000
AcDbSavedByObjectVersion
1070
     0
  0
VISUALSTYLE
  5
35
102
{ACAD_REACTORS
330
2A
102
}
330
2A
100
AcDbVisualStyle
  2
Dim
 70
    11
 71
     2
 72
     2
 73
     0
 90
        0
 40
-0.6
 41
-30.0
 62
     5
 63
     7
 74
     1
 91
        4
 64
     7
 65
   257
 75
     1
175
     1
 42
1.0
 92
        8
 66
     7
 43
1.0
 76
     1
 77
     6
 78
     2
 67
     7
 79
     5
170
     0
171
     0
290
     0
174
     0
 93
        1
 44
-50.0
173
     0
291
     1
 45
0.0
1001
ACAD
1000
AcDbSavedByObjectVersion
1070
     0
  0
VISUALSTYLE
  5
39
102
{ACAD_REACTORS
330
2A
102
}
330
2A
100
AcDbVisualStyle
  2
Facepattern
 70
    15
 71
     2
 72
     2
 73
     0
 90
        0
 40
-0.6
 41
-30.0
 62
     5
 63
     7
 74
     1
 91
        4
 64
     7
 65
   257
 75
     1
175
     1
 42
1.0
 92
        8
 66
     7
 43
1.0
 76
     1
 77
     6
 78
     2
 67
     7
 79
     5
170
     0
171
     0
290
     0
174
     0
 93
        1
 44
0.0
173
     0
291
     1
 45
0.0
1001
ACAD
1000
AcDbSavedByObjectVersion
1070
     0
  0
VISUALSTYLE
  5
2B
102
{ACAD_REACTORS
330
2A
102
}
330
2A
100
AcDbVisualStyle
  2
Flat
 70
     0
 71
     2
 72
     1
 73
     1
 90
        2
 40
-0.6
 41
30.0
 62
     5
 63
     7
 74
     0
 91
        4
 64
     7
 65
   257
 75
     1
175
     1
 42
1.0
 92
        8
 66
     7
 43
1.0
 76
     1
 77
     6
 78
     2
 67
     7
 79
     5
170
     0
171
     0
290
     0
174
     0
 93
       13
 44
0.0
173
     0
291
     1
 45
0.0
1001
ACAD
1000
AcDbSavedByObjectVersion
1070
     0
  0
VISUALSTYLE
  5
2C
102
{ACAD_REACTORS
330
2A
102
}
330
2A
100
AcDbVisualStyle
  2
FlatWithEdges
 70
     1
 71
     2
 72
     1
 73
     1
 90
        2
 40
-0.6
 41
30.0
 62
     5
 63
     7
 74
     1
 91
        4
 64
     7
 65
   257
 75
     1
175
     1
 42
1.0
 92
        0
 66
   257
 43
1.0
 76
     1
 77
     6
 78
     2
 67
     7
 79
     5
170
     0
171
     0
290
     0
174
     0
 93
       13
 44
0.0
173
     0
291
     1
 45
0.0
1001
ACAD
1000
AcDbSavedByObjectVersion
1070
     0
  0
VISUALSTYLE
  5
2D
102
{ACAD_REACTORS
330
2A
102
}
330
2A
100
AcDbVisualStyle
  2
Gouraud
 70
     2
 71
     2
 72
     2
 73
     1
 90
        2
 40
-0.6
 41
30.0
 62
     5
 63
     7
 74
     0
 91
        4
 64
     7
 65
   257
 75
     1
175
     1
 42
1.0
 92
        0
 66
     7
 43
1.0
 76
     1
 77
     6
 78
     2
 67
     7
 79
     5
170
     0
171
     0
290
     0
174
     0
 93
       13
 44
0.0
173
     0
291
     1
 45
0.0
1001
ACAD
1000
AcDbSavedByObjectVersion
1070
     0
  0
VISUALSTYLE
  5
2E
102
{ACAD_REACTORS
330
2A
102
}
330
2A
100
AcDbVisualStyle
  2
GouraudWithEdges
 70
     3
 71
     2
 72
     2
 73
     1
 90
        2
 40
-0.6
 41
30.0
 62
     5
 63
     7
 74
     1
 91
        4
 64
     7
 65
   257
 75
     1
175
     1
 42
1.0
 92
        0
 66
   257
 43
1.0
 76
     1
 77
     6
 78
     2
 67
     7
 79
     5
170
     0
171
     0
290
     0
174
     0
 93
       13
 44
0.0
173
     0
291
     1
 45
0.0
1001
ACAD
1000
AcDbSavedByObjectVersion
1070
     0
  0
VISUALSTYLE
  5
38
102
{ACAD_REACTORS
330
2A
102
}
330
2A
100
AcDbVisualStyle
  2
Linepattern
 70
    14
 71
     2
 72
     2
 73
     0
 90
        0
 40
-0.6
 41
-30.0
 62
     5
 63
     7
 74
     1
 91
        4
 64
     7
 65
   257
 75
     7
175
     7
 42
1.0
 92
        8
 66
     7
 43
1.0
 76
     1
 77
     6
 78
     2
 67
     7
 79
     5
170
     0
171
     0
290
     0
174
     0
 93
        1
 44
0.0
173
     0
291
     1
 45
0.0
1001
ACAD
1000
AcDbSavedByObjectVersion
1070
     0
  0
VISUALSTYLE
  5
33
102
{ACAD_REACTORS
330
2A
102
}
330
2A
100
AcDbVisualStyle
  2
Realistic
 70
     8
 71
     2
 72
     2
 73
     0
 90
        0
 40
-0.6
 41
-30.0
 62
     5
 63
     7
 74
     1
 91
        0
 64
     7
 65
   257
 75
     1
175
     1
 42
1.0
 92
        8
 66
     8
 43
1.0
 76
     1
 77
     6
 78
     2
 67
     7
 79
     5
170
     0
171
     0
290
     0
174
     0
 93
       13
 44
0.0
173
     0
291
     0
 45
0.0
1001
ACAD
1000
AcDbSavedByObjectVersion
1070
     0
  0
VISUALSTYLE
  5
37
102
{ACAD_REACTORS
330
2A
102
}
330
2A
100
AcDbVisualStyle
  2
Thicken
 70
    13
 71
     2
 72
     2
 73
     0
 90
        0
 40
-0.6
 41
-30.0
 62
     5
 63
     7
 74
     1
 91
        4
 64
     7
 65
   257
 75
     1
175
     1
 42
1.0
 92
       12
 66
     7
 43
1.0
 76
     1
 77
     6
 78
     2
 67
     7
 79
     5
170
     0
171
     0
290
     0
174
     0
 93
        1
 44
0.0
173
     0
291
     1
 45
0.0
1001
ACAD
1000
AcDbSavedByObjectVersion
1070
     0
  0
ENDSEC
  0
EOF
